Home | Community | Message Board


Vaposhop
Please support our sponsors.

Community >> The Smoke Lounge >> Tune Town

Welcome to the Growery Message Board! You are experiencing a small sample of what the site has to offer. Please login or register to post messages and view our exclusive members-only content. You'll gain access to additional forums, file attachments, board customizations, encrypted private messages, and much more!

Jump to first unread post. Pages: 1
OfflineHeadTripVertigo

Registered: 05/09/08
Posts: 18
Loc: Philly
Last seen: 6 years, 14 days
tab help
    #354064 - 01/27/10 11:09 AM (6 years, 10 months ago)

anyone who can help me with this tab, it'll be greatly appreciated.  I'm working the rest out slowly but some of its rough.  any critiques/corrections/additions on what I've got thus far are welcome too.
song:

Code:
Sculptured - Embodiment

Tuning 1/2 Step down

1)
|--------------------------|
|--------------------------|
|--------------------------|
|-2--2--5---4--4--5--2--2--|
|-2--2--5---4--4--5--2--2--|
|-0--0--3---2--2--3--0--0--|

1a)
|----------------------------------------|
|----------------------------------------|
|-7/9-7-h-9-p-7---9/12---12/14--14/16-\7-|
|---------------9------9-----------------|
|----------------------------------------|
|----------------------------------------|

|--------------------------------------------------------|
|--------------------------------------------------------|
|-7/9-7-h-9-p-7---9/12-9h12p9-----9/12---12/14--14/19-\7-|
|---------------9--------------9-------9-----------------|
|--------------------------------------------------------|
|--------------------------------------------------------|

|-----------------------------------------------|
|-----------------------------------------------|
|-7/9-7-h-9-p-7---7/9-7-h-9-p-7---7/9-9---7/9---|
|---------------9---------------9-------9-----9-|
|-----------------------------------------------|
|-----------------------------------------------|

2)
|----------------------------------------------------|
|----------------------------------------------------|
|----------------------------------------------------|
|-12\--------------5\4-------------------------------|
|-12\----6-x-6h7-7-----6-6/7-7------7-9/10-7-5-7/9\7-|
|-10\---0-------------------------3------------------|

|--------------------------------------|
|--------------------------------------|
|--------------------------------------|
|--------------------------------------|
|---7-9/10-10/12-10\9-7/9-5----6-6/7-7-|
|-2--------------------------0---------|

2a)



Post Extras: Print Post  Remind Me! Notify Moderator
OfflineTHEBats
The Bridge Master
Male


Registered: 04/20/08
Posts: 8,488
Last seen: 3 years, 5 months
Re: tab help [Re: HeadTripVertigo]
    #354196 - 01/27/10 05:58 PM (6 years, 10 months ago)

You should use a program like guitar pro or power tab to arrange your tab.


--------------------
kickin-two-hundo said:
you know what i did in english class? I came to class stoned out of my mind every day, i chugged vodka in the back of class, i put dead fish in the ceiling tiles. i put a gallon of old milk and orange juice in the file cabinet before winter vacation. i brought snakes in a tied up sweater and let them loose during class. i didnt go to school to learn, i went because i had to. i didnt care, and i didn't fucking listen to that stupid bitch. and i still don't fucking care. i tore the pages out of her books and burned them, and threw away all the books in the class, two books per day.  :twobooks:


Post Extras: Print Post  Remind Me! Notify Moderator
OfflineHeadTripVertigo

Registered: 05/09/08
Posts: 18
Loc: Philly
Last seen: 6 years, 14 days
Re: tab help [Re: THEBats]
    #354265 - 01/27/10 09:10 PM (6 years, 10 months ago)

cool thanks for helping out :crankey:


Post Extras: Print Post  Remind Me! Notify Moderator
OfflineTHEBats
The Bridge Master
Male


Registered: 04/20/08
Posts: 8,488
Last seen: 3 years, 5 months
Re: tab help [Re: HeadTripVertigo]
    #354308 - 01/27/10 10:49 PM (6 years, 10 months ago)

Well it takes no more effort, if not less effort, to use guitar pro or power tab and you would be able to actually hear what you're tabbing out so you can decide if it sounds accurate or not.


--------------------
kickin-two-hundo said:
you know what i did in english class? I came to class stoned out of my mind every day, i chugged vodka in the back of class, i put dead fish in the ceiling tiles. i put a gallon of old milk and orange juice in the file cabinet before winter vacation. i brought snakes in a tied up sweater and let them loose during class. i didnt go to school to learn, i went because i had to. i didnt care, and i didn't fucking listen to that stupid bitch. and i still don't fucking care. i tore the pages out of her books and burned them, and threw away all the books in the class, two books per day.  :twobooks:


Post Extras: Print Post  Remind Me! Notify Moderator
Offlinettotheh
european son
Male


Registered: 05/14/09
Posts: 2,135
Loc: new york state Flag
Last seen: 4 years, 6 months
Re: tab help [Re: THEBats]
    #354347 - 01/27/10 11:47 PM (6 years, 10 months ago)

Quote:

THEBats said:
Well it takes no more effort, if not less effort, to use guitar pro or power tab and you would be able to actually hear what you're tabbing out so you can decide if it sounds accurate or not.




yea guitar pro was sweet to bad its not free


--------------------
I live with thirteen dead cats ,
a purple dog that wears spats,
they all live out in the hall,
and i cant stand it anymore



anything i say on this website is 100 % false


Post Extras: Print Post  Remind Me! Notify Moderator
OfflineTHEBats
The Bridge Master
Male


Registered: 04/20/08
Posts: 8,488
Last seen: 3 years, 5 months
Re: tab help [Re: ttotheh]
    #354350 - 01/27/10 11:48 PM (6 years, 10 months ago)

It can be.  :madpirate:


--------------------
kickin-two-hundo said:
you know what i did in english class? I came to class stoned out of my mind every day, i chugged vodka in the back of class, i put dead fish in the ceiling tiles. i put a gallon of old milk and orange juice in the file cabinet before winter vacation. i brought snakes in a tied up sweater and let them loose during class. i didnt go to school to learn, i went because i had to. i didnt care, and i didn't fucking listen to that stupid bitch. and i still don't fucking care. i tore the pages out of her books and burned them, and threw away all the books in the class, two books per day.  :twobooks:


Post Extras: Print Post  Remind Me! Notify Moderator
Offlinettotheh
european son
Male


Registered: 05/14/09
Posts: 2,135
Loc: new york state Flag
Last seen: 4 years, 6 months
Re: tab help [Re: THEBats]
    #354352 - 01/27/10 11:52 PM (6 years, 10 months ago)

you sly fox


--------------------
I live with thirteen dead cats ,
a purple dog that wears spats,
they all live out in the hall,
and i cant stand it anymore



anything i say on this website is 100 % false


Post Extras: Print Post  Remind Me! Notify Moderator
OfflineThebooedocksaint
Dead Dictator
 User Gallery


Registered: 05/11/09
Posts: 5,525
Loc: Wild & Free
Last seen: 20 days, 13 hours
Re: tab help [Re: ttotheh]
    #354448 - 01/28/10 09:47 AM (6 years, 10 months ago)

I use Tux guitar. Freeware. It is just as good as any other program I have used.

AKA you don't get that annoying "buy me" notice like some guitar programs.


--------------------
"To say that nothing is true, is to realize that the foundations of society are fragile, and that we must be the shepherds of our own civilization. To say that everything is permitted, is to understand that we are the architects of our actions, and that we must live with their consequences, whether glorious or tragic."

"Je pense, donc je suis (I am thinking, therefore I am)." -Rene Descartes

I am tired of Earth
I am tired of these people


Post Extras: Print Post  Remind Me! Notify Moderator
OfflineHeadTripVertigo

Registered: 05/09/08
Posts: 18
Loc: Philly
Last seen: 6 years, 14 days
Re: tab help [Re: Thebooedocksaint]
    #354711 - 01/28/10 10:54 PM (6 years, 10 months ago)

can you guys actually try and help as opposed to bickering about which GP/PT etc program is best?  that'd be super.  if you do in fact want to help, I can totally accept such help in gp5/ptab format etc.  this thread is more about the help than the "how" to help


Post Extras: Print Post  Remind Me! Notify Moderator
Offlinettotheh
european son
Male


Registered: 05/14/09
Posts: 2,135
Loc: new york state Flag
Last seen: 4 years, 6 months
Re: tab help [Re: HeadTripVertigo]
    #354716 - 01/28/10 11:23 PM (6 years, 10 months ago)

Intro:
|-----------------|------------|
|-----------------|------------|
|-----------------|------------|
|-2---------3-----|-2----------|
|-2-----3---1---3-|-2----------|
|-0-0-0-1-x---x-1-|-0----------|

|--------------------|------------------|
|--------------------|------------------|
|--------------------|-------------4----|
|---6-7h9~~-7-6h7p6--|---4-5-----2---2--|
|-4----------------7-|-2-----0----------|
|--------------------|------------------|

|--------------------|------------------|
|--------------------|-------------AH---|
|-----------------6--|-------------4b~~-|
|---6-7h9~~-7-6h7----|---4-5-----2------|
|-4------------------|-2-----0----------|
|--------------------|------------------|

Then repeat the above with the other guitar playing a harmony
(up a major third, with the exception of the C# and G# notes, which
are harmonised in minor thirds... is this clear?)

|-----------------|-----------------|-----------------|
|-----------------|-----------------|-----------------|
|-----------------|-----------------|-----------------|
|---4-5---4-5---4-|-5-7-5-4---------|---2-4---2-4---4-|
|-2-----2-----2---|---------7-5-4-2-|-1-----1-----1---|
|-----------------|-----------------|-----------------|

|-----------------|  Then again with a harmony, in perfect
|-----------------|  fifths this time.  The final measure
|-----------------|  is different:  just three G5 chords
|-----------------|  to lead into the verse.
|---4-5---4-5---5-|
|-3-----3-----3---|

Verse:
|-----------------|-----------------|-----------------|-----------------|
|-----------------|-----------------|-----------------|-----------------|
|-----------------|-----------------|-----------------|-----------------|
|-----------3-----|-----------3-----|-----------3-----|-----------------|
|-2-----3---1---3-|-2-----3---1---3-|-6-----3---1---3-|-2---------------|
|-0-0-0-1-x---x-1-|-0-0-0-1-x---x-1-|-4-0-0-1-x---x-1-|-0-0-000-0-0-000-|

Later on, the second riff after the intro (the palm-muted progression with
B A# G as its roots) is heard with the second guitar playing power-chords:
A#5    G5    the first time
A#5 C5 G5 A5 the second time, into the following:

"Raaargh!  From your knees arise..." (corrected 2/12/01)
|----------------------------------------------------------|
|----------------------------------------------------------|
|----------------------------------------------------------|
|------------------9-10-9----------------14-12-11----------|
|-----12--11--12----------12-11-9-----------------14-12-11-|
|-0-0---0---0----0----------------12-11~-------------------|

|---------------------------------------------------|
|---------------------------------------------------|
|---------------------------------------------------|
|-----14-12-11--------------14-12-11----------------|
|--------------14-12-11--------------14-12-11-------|
|-12~-------------------10~-------------------12\sl-|

(corrected 2/12/01)
|---------------------------------------------|
|---------------------------------------------|
|---------------------------------------------|
|-------2-3--------2-3--------2-3------2-3-5--|
|-----5----------5----------5-----------------|
|-3----------4----------1----------4----------|

(added 2/12/01)          (ending: 2/12/01)
|---------------------|
|---------------------|
|---------------------|
|---------------------|
|-7----8----5----8----|
|-5----6----3----6----|  A5 A5 A5 A5
  hold -    -    -]      PM------|

The first versions of the leads were contributed by Avian:
(both transcriptions are fairly similar)

Michael Amott's:
|------------------------------------------- h ---------- h ------- h
------|
|----/------------------------------------15---17-17---15---17---15---17-17-|
|--12---------------------16--12--------------------------------------------|
|---------14--12--14--12----------14----------------------------------------|
|---------------------------------------------------------------------------|
|---------------------------------------------------------------------------|

|--------------15-------- h -- p -- p
--------------------------------------|
|--15--17--19------19--17---19---17---15----17-15-----17-20-17-17-20-17-17--|
|---------------------------------------------------------------------------|
|---------------------------------------------------------------------------|
|---------------------------------------------------------------------------|
|---------------------------------------------------------------------------|

                    /\/\                                          /\/\/\/\
|-----------------19--------------------------------------------19----------|
|--20-17-20-17-17-----------------------------------------------------------|
|------------------------16--14---------------------------------------------|
|--------------------------------17--16--17--16-----17-16-14----------------|
|---------------------------------------------------------------------------|
|---------------------------------------------------------------------------|

Bill's solo:
|---------------------------------------------------------------------------|
|----/\/---/\/--------------------------------------------------------------|
|--17----12----16------------h--p--p----------------------------------------|
|------------------18--17--17-18-17-15---18--17--15------------h--p---------|
|----------------------------------------------------18--17--17-18-17-------|
|---------------------------------------------------------------------------|

|---------------------------------------------------------------------------|
|---------------------------------------------------------------------------|
|---------------------------------------------------------------------------|
|----------------------15----------------h--p-------------------------------|
|--15--14-----15--18-------18--17--18--17-18-17---18-17-15-14---------------|
|--------------------------------------------------------------16---13------|

|---------------------------------------------------------------------------|
|---------------------------------------------------------------h--p--------|
|-------------------------------------------------12-13-15-13-12-13-12------|
|------------------------------12-13-15-13-12-13-----------------------15---|
|-------------13-15---11----15----------------------------------------------|
|--15---13-15---------------------------------------------------------------|

|---------------------------------------19-15-16-15-------------------------|
|---------------------------------------------------18-16-15-16---/\/\------|
|--12----------h--p------/\/\/\---------------------------------16----------|
|-----15-13--12-13-12--10---------------------------------------------------|
|---------------------------------------------------------------------------|
|---------------------------------------------------------------------------|

|--22-19-20-19-------------------------------------------------h--h----|
|--------------20-17---/\/\---------------------------h--h---12-13-15--|
|--------------------19-------------h--h-----h--h---10-11-13-----------|
|----------------------------------9-10-12-12-14-15--------------------|
|----------------------------------------------------------------------|
|----------------------------------------------------------------------|

|----p--p-------------------------------------------|
|--15-13-12---p--p----------------------------------|
|-----------13-11-10---p--p-----p--p----/\/\/\/\/\--|
|--------------------15-14-12-12-10-9--9------------|
|---------------------------------------------------|
|---------------------------------------------------|


Mike Driscoll offers the following as alternatives:
(b=bend, full-step normally)
Amott:
|-----------------------------------12----12----12-14-15-14-12h14p12----12-----|
|-------------------------------15b----15----15----------------------15----15b-|
|-14b---------------14b16r14-12------------------------------------------------|
|-14b---14-12-14-12------------------------------------------------------------|
|------------------------------------------------------------------------------|
|------------------------------------------------------------------------------|

|-12-15-12----12-15-12----12-15-15----12-15-12----12-15-12----15b-|
|----------15----------15----------15----------15----------15-----|
|-----------------------------------------------------------------|
|-----------------------------------------------------------------|
|-----------------------------------------------------------------|
|-----------------------------------------------------------------|

|----------------------------------------------|
|----------------------------------TH----------|
|-14b--14-12-11-12-14-12-11-9-----(21)---------|
|----------------------------------------------|
|----------------------------------------------|
|----------------------------------------------|

Steer:
|-20~~~-------19~~----------------------------------------------------------------|
|-------20~~~------21-20-20h21p20-18-21-20-18-------------------------------18~~~-|
|---------------------------------------------20-19-19-20-19-17-16~~~-17-20-------|
|---------------------------------------------------------------------------------|
|---------------------------------------------------------------------------------|
|---------------------------------------------------------------------------------|

|--------------------------------------------------------------|
|--------------------------------------------------------------|
|-20-19-20-19-20-19-20-19-17-16----------------16h19p17--------|
|-------------------------------18-15-17-17h18----------18~~---|
|--------------------------------------------------------------|
|--------------------------------------------------------------|

|-------------------------------15-16-19-16-15h16p15----15-----------------|
|-------15h16-15-16-15----15-16----------------------18----18-16-15h16p15--| etc.
|-16-17----------------17--------------------------------------------------|
|--------------------------------------------------------------------------|
|--------------------------------------------------------------------------|
|--------------------------------------------------------------------------|


--------------------
I live with thirteen dead cats ,
a purple dog that wears spats,
they all live out in the hall,
and i cant stand it anymore



anything i say on this website is 100 % false


Post Extras: Print Post  Remind Me! Notify Moderator
OfflineTHEBats
The Bridge Master
Male


Registered: 04/20/08
Posts: 8,488
Last seen: 3 years, 5 months
Re: tab help [Re: ttotheh]
    #354844 - 01/29/10 10:24 AM (6 years, 10 months ago)

Quote:

ttotheh said:
Intro:
|-----------------|------------|
|-----------------|------------|
|-----------------|------------|
|-2---------3-----|-2----------|
|-2-----3---1---3-|-2----------|
|-0-0-0-1-x---x-1-|-0----------|

|--------------------|------------------|
|--------------------|------------------|
|--------------------|-------------4----|
|---6-7h9~~-7-6h7p6--|---4-5-----2---2--|
|-4----------------7-|-2-----0----------|
|--------------------|------------------|

|--------------------|------------------|
|--------------------|-------------AH---|
|-----------------6--|-------------4b~~-|
|---6-7h9~~-7-6h7----|---4-5-----2------|
|-4------------------|-2-----0----------|
|--------------------|------------------|

Then repeat the above with the other guitar playing a harmony
(up a major third, with the exception of the C# and G# notes, which
are harmonised in minor thirds... is this clear?)

|-----------------|-----------------|-----------------|
|-----------------|-----------------|-----------------|
|-----------------|-----------------|-----------------|
|---4-5---4-5---4-|-5-7-5-4---------|---2-4---2-4---4-|
|-2-----2-----2---|---------7-5-4-2-|-1-----1-----1---|
|-----------------|-----------------|-----------------|

|-----------------|  Then again with a harmony, in perfect
|-----------------|  fifths this time.  The final measure
|-----------------|  is different:  just three G5 chords
|-----------------|  to lead into the verse.
|---4-5---4-5---5-|
|-3-----3-----3---|

Verse:
|-----------------|-----------------|-----------------|-----------------|
|-----------------|-----------------|-----------------|-----------------|
|-----------------|-----------------|-----------------|-----------------|
|-----------3-----|-----------3-----|-----------3-----|-----------------|
|-2-----3---1---3-|-2-----3---1---3-|-6-----3---1---3-|-2---------------|
|-0-0-0-1-x---x-1-|-0-0-0-1-x---x-1-|-4-0-0-1-x---x-1-|-0-0-000-0-0-000-|

Later on, the second riff after the intro (the palm-muted progression with
B A# G as its roots) is heard with the second guitar playing power-chords:
A#5    G5    the first time
A#5 C5 G5 A5 the second time, into the following:

"Raaargh!  From your knees arise..." (corrected 2/12/01)
|----------------------------------------------------------|
|----------------------------------------------------------|
|----------------------------------------------------------|
|------------------9-10-9----------------14-12-11----------|
|-----12--11--12----------12-11-9-----------------14-12-11-|
|-0-0---0---0----0----------------12-11~-------------------|

|---------------------------------------------------|
|---------------------------------------------------|
|---------------------------------------------------|
|-----14-12-11--------------14-12-11----------------|
|--------------14-12-11--------------14-12-11-------|
|-12~-------------------10~-------------------12\sl-|

(corrected 2/12/01)
|---------------------------------------------|
|---------------------------------------------|
|---------------------------------------------|
|-------2-3--------2-3--------2-3------2-3-5--|
|-----5----------5----------5-----------------|
|-3----------4----------1----------4----------|

(added 2/12/01)          (ending: 2/12/01)
|---------------------|
|---------------------|
|---------------------|
|---------------------|
|-7----8----5----8----|
|-5----6----3----6----|  A5 A5 A5 A5
  hold -    -    -]      PM------|

The first versions of the leads were contributed by Avian:
(both transcriptions are fairly similar)

Michael Amott's:
|------------------------------------------- h ---------- h ------- h
------|
|----/------------------------------------15---17-17---15---17---15---17-17-|
|--12---------------------16--12--------------------------------------------|
|---------14--12--14--12----------14----------------------------------------|
|---------------------------------------------------------------------------|
|---------------------------------------------------------------------------|

|--------------15-------- h -- p -- p
--------------------------------------|
|--15--17--19------19--17---19---17---15----17-15-----17-20-17-17-20-17-17--|
|---------------------------------------------------------------------------|
|---------------------------------------------------------------------------|
|---------------------------------------------------------------------------|
|---------------------------------------------------------------------------|

                    /\/\                                          /\/\/\/\
|-----------------19--------------------------------------------19----------|
|--20-17-20-17-17-----------------------------------------------------------|
|------------------------16--14---------------------------------------------|
|--------------------------------17--16--17--16-----17-16-14----------------|
|---------------------------------------------------------------------------|
|---------------------------------------------------------------------------|

Bill's solo:
|---------------------------------------------------------------------------|
|----/\/---/\/--------------------------------------------------------------|
|--17----12----16------------h--p--p----------------------------------------|
|------------------18--17--17-18-17-15---18--17--15------------h--p---------|
|----------------------------------------------------18--17--17-18-17-------|
|---------------------------------------------------------------------------|

|---------------------------------------------------------------------------|
|---------------------------------------------------------------------------|
|---------------------------------------------------------------------------|
|----------------------15----------------h--p-------------------------------|
|--15--14-----15--18-------18--17--18--17-18-17---18-17-15-14---------------|
|--------------------------------------------------------------16---13------|

|---------------------------------------------------------------------------|
|---------------------------------------------------------------h--p--------|
|-------------------------------------------------12-13-15-13-12-13-12------|
|------------------------------12-13-15-13-12-13-----------------------15---|
|-------------13-15---11----15----------------------------------------------|
|--15---13-15---------------------------------------------------------------|

|---------------------------------------19-15-16-15-------------------------|
|---------------------------------------------------18-16-15-16---/\/\------|
|--12----------h--p------/\/\/\---------------------------------16----------|
|-----15-13--12-13-12--10---------------------------------------------------|
|---------------------------------------------------------------------------|
|---------------------------------------------------------------------------|

|--22-19-20-19-------------------------------------------------h--h----|
|--------------20-17---/\/\---------------------------h--h---12-13-15--|
|--------------------19-------------h--h-----h--h---10-11-13-----------|
|----------------------------------9-10-12-12-14-15--------------------|
|----------------------------------------------------------------------|
|----------------------------------------------------------------------|

|----p--p-------------------------------------------|
|--15-13-12---p--p----------------------------------|
|-----------13-11-10---p--p-----p--p----/\/\/\/\/\--|
|--------------------15-14-12-12-10-9--9------------|
|---------------------------------------------------|
|---------------------------------------------------|


Mike Driscoll offers the following as alternatives:
(b=bend, full-step normally)
Amott:
|-----------------------------------12----12----12-14-15-14-12h14p12----12-----|
|-------------------------------15b----15----15----------------------15----15b-|
|-14b---------------14b16r14-12------------------------------------------------|
|-14b---14-12-14-12------------------------------------------------------------|
|------------------------------------------------------------------------------|
|------------------------------------------------------------------------------|

|-12-15-12----12-15-12----12-15-15----12-15-12----12-15-12----15b-|
|----------15----------15----------15----------15----------15-----|
|-----------------------------------------------------------------|
|-----------------------------------------------------------------|
|-----------------------------------------------------------------|
|-----------------------------------------------------------------|

|----------------------------------------------|
|----------------------------------TH----------|
|-14b--14-12-11-12-14-12-11-9-----(21)---------|
|----------------------------------------------|
|----------------------------------------------|
|----------------------------------------------|

Steer:
|-20~~~-------19~~----------------------------------------------------------------|
|-------20~~~------21-20-20h21p20-18-21-20-18-------------------------------18~~~-|
|---------------------------------------------20-19-19-20-19-17-16~~~-17-20-------|
|---------------------------------------------------------------------------------|
|---------------------------------------------------------------------------------|
|---------------------------------------------------------------------------------|

|--------------------------------------------------------------|
|--------------------------------------------------------------|
|-20-19-20-19-20-19-20-19-17-16----------------16h19p17--------|
|-------------------------------18-15-17-17h18----------18~~---|
|--------------------------------------------------------------|
|--------------------------------------------------------------|

|-------------------------------15-16-19-16-15h16p15----15-----------------|
|-------15h16-15-16-15----15-16----------------------18----18-16-15h16p15--| etc.
|-16-17----------------17--------------------------------------------------|
|--------------------------------------------------------------------------|
|--------------------------------------------------------------------------|
|--------------------------------------------------------------------------|





This is why I didn't offer to help.  I don't see how anyone can read that shit.


--------------------
kickin-two-hundo said:
you know what i did in english class? I came to class stoned out of my mind every day, i chugged vodka in the back of class, i put dead fish in the ceiling tiles. i put a gallon of old milk and orange juice in the file cabinet before winter vacation. i brought snakes in a tied up sweater and let them loose during class. i didnt go to school to learn, i went because i had to. i didnt care, and i didn't fucking listen to that stupid bitch. and i still don't fucking care. i tore the pages out of her books and burned them, and threw away all the books in the class, two books per day.  :twobooks:


Post Extras: Print Post  Remind Me! Notify Moderator
OfflineHeadTripVertigo

Registered: 05/09/08
Posts: 18
Loc: Philly
Last seen: 6 years, 14 days
Re: tab help [Re: ttotheh]
    #363907 - 02/14/10 08:42 AM (6 years, 9 months ago)

Quote:

ttotheh said:
Code:
Intro:
|-----------------|------------|
|-----------------|------------|
|-----------------|------------|
|-2---------3-----|-2----------|
|-2-----3---1---3-|-2----------|
|-0-0-0-1-x---x-1-|-0----------|

|--------------------|------------------|
|--------------------|------------------|
|--------------------|-------------4----|
|---6-7h9~~-7-6h7p6--|---4-5-----2---2--|
|-4----------------7-|-2-----0----------|
|--------------------|------------------|

|--------------------|------------------|
|--------------------|-------------AH---|
|-----------------6--|-------------4b~~-|
|---6-7h9~~-7-6h7----|---4-5-----2------|
|-4------------------|-2-----0----------|
|--------------------|------------------|

Then repeat the above with the other guitar playing a harmony
(up a major third, with the exception of the C# and G# notes, which
are harmonised in minor thirds... is this clear?)

|-----------------|-----------------|-----------------|
|-----------------|-----------------|-----------------|
|-----------------|-----------------|-----------------|
|---4-5---4-5---4-|-5-7-5-4---------|---2-4---2-4---4-|
|-2-----2-----2---|---------7-5-4-2-|-1-----1-----1---|
|-----------------|-----------------|-----------------|

|-----------------| Then again with a harmony, in perfect
|-----------------| fifths this time. The final measure
|-----------------| is different: just three G5 chords
|-----------------| to lead into the verse.
|---4-5---4-5---5-|
|-3-----3-----3---|

Verse:
|-----------------|-----------------|-----------------|-----------------|
|-----------------|-----------------|-----------------|-----------------|
|-----------------|-----------------|-----------------|-----------------|
|-----------3-----|-----------3-----|-----------3-----|-----------------|
|-2-----3---1---3-|-2-----3---1---3-|-6-----3---1---3-|-2---------------|
|-0-0-0-1-x---x-1-|-0-0-0-1-x---x-1-|-4-0-0-1-x---x-1-|-0-0-000-0-0-000-|

Later on, the second riff after the intro (the palm-muted progression with
B A# G as its roots) is heard with the second guitar playing power-chords:
A#5 G5 the first time
A#5 C5 G5 A5 the second time, into the following:

"Raaargh! From your knees arise..." (corrected 2/12/01)
|----------------------------------------------------------|
|----------------------------------------------------------|
|----------------------------------------------------------|
|------------------9-10-9----------------14-12-11----------|
|-----12--11--12----------12-11-9-----------------14-12-11-|
|-0-0---0---0----0----------------12-11~-------------------|

|---------------------------------------------------|
|---------------------------------------------------|
|---------------------------------------------------|
|-----14-12-11--------------14-12-11----------------|
|--------------14-12-11--------------14-12-11-------|
|-12~-------------------10~-------------------12\sl-|

(corrected 2/12/01)
|---------------------------------------------|
|---------------------------------------------|
|---------------------------------------------|
|-------2-3--------2-3--------2-3------2-3-5--|
|-----5----------5----------5-----------------|
|-3----------4----------1----------4----------|

(added 2/12/01) (ending: 2/12/01)
|---------------------|
|---------------------|
|---------------------|
|---------------------|
|-7----8----5----8----|
|-5----6----3----6----| A5 A5 A5 A5
hold - - -] PM------|

The first versions of the leads were contributed by Avian:
(both transcriptions are fairly similar)

Michael Amott's:
|------------------------------------------- h ---------- h ------- h
------|
|----/------------------------------------15---17-17---15---17---15---17-17-|
|--12---------------------16--12--------------------------------------------|
|---------14--12--14--12----------14----------------------------------------|
|---------------------------------------------------------------------------|
|---------------------------------------------------------------------------|

|--------------15-------- h -- p -- p
--------------------------------------|
|--15--17--19------19--17---19---17---15----17-15-----17-20-17-17-20-17-17--|
|---------------------------------------------------------------------------|
|---------------------------------------------------------------------------|
|---------------------------------------------------------------------------|
|---------------------------------------------------------------------------|

/\/\ /\/\/\/\
|-----------------19--------------------------------------------19----------|
|--20-17-20-17-17-----------------------------------------------------------|
|------------------------16--14---------------------------------------------|
|--------------------------------17--16--17--16-----17-16-14----------------|
|---------------------------------------------------------------------------|
|---------------------------------------------------------------------------|

Bill's solo:
|---------------------------------------------------------------------------|
|----/\/---/\/--------------------------------------------------------------|
|--17----12----16------------h--p--p----------------------------------------|
|------------------18--17--17-18-17-15---18--17--15------------h--p---------|
|----------------------------------------------------18--17--17-18-17-------|
|---------------------------------------------------------------------------|

|---------------------------------------------------------------------------|
|---------------------------------------------------------------------------|
|---------------------------------------------------------------------------|
|----------------------15----------------h--p-------------------------------|
|--15--14-----15--18-------18--17--18--17-18-17---18-17-15-14---------------|
|--------------------------------------------------------------16---13------|

|---------------------------------------------------------------------------|
|---------------------------------------------------------------h--p--------|
|-------------------------------------------------12-13-15-13-12-13-12------|
|------------------------------12-13-15-13-12-13-----------------------15---|
|-------------13-15---11----15----------------------------------------------|
|--15---13-15---------------------------------------------------------------|

|---------------------------------------19-15-16-15-------------------------|
|---------------------------------------------------18-16-15-16---/\/\------|
|--12----------h--p------/\/\/\---------------------------------16----------|
|-----15-13--12-13-12--10---------------------------------------------------|
|---------------------------------------------------------------------------|
|---------------------------------------------------------------------------|

|--22-19-20-19-------------------------------------------------h--h----|
|--------------20-17---/\/\---------------------------h--h---12-13-15--|
|--------------------19-------------h--h-----h--h---10-11-13-----------|
|----------------------------------9-10-12-12-14-15--------------------|
|----------------------------------------------------------------------|
|----------------------------------------------------------------------|

|----p--p-------------------------------------------|
|--15-13-12---p--p----------------------------------|
|-----------13-11-10---p--p-----p--p----/\/\/\/\/\--|
|--------------------15-14-12-12-10-9--9------------|
|---------------------------------------------------|
|---------------------------------------------------|


Mike Driscoll offers the following as alternatives:
(b=bend, full-step normally)
Amott:
|-----------------------------------12----12----12-14-15-14-12h14p12----12-----|
|-------------------------------15b----15----15----------------------15----15b-|
|-14b---------------14b16r14-12------------------------------------------------|
|-14b---14-12-14-12------------------------------------------------------------|
|------------------------------------------------------------------------------|
|------------------------------------------------------------------------------|

|-12-15-12----12-15-12----12-15-15----12-15-12----12-15-12----15b-|
|----------15----------15----------15----------15----------15-----|
|-----------------------------------------------------------------|
|-----------------------------------------------------------------|
|-----------------------------------------------------------------|
|-----------------------------------------------------------------|

|----------------------------------------------|
|----------------------------------TH----------|
|-14b--14-12-11-12-14-12-11-9-----(21)---------|
|----------------------------------------------|
|----------------------------------------------|
|----------------------------------------------|

Steer:
|-20~~~-------19~~----------------------------------------------------------------|
|-------20~~~------21-20-20h21p20-18-21-20-18-------------------------------18~~~-|
|---------------------------------------------20-19-19-20-19-17-16~~~-17-20-------|
|---------------------------------------------------------------------------------|
|---------------------------------------------------------------------------------|
|---------------------------------------------------------------------------------|

|--------------------------------------------------------------|
|--------------------------------------------------------------|
|-20-19-20-19-20-19-20-19-17-16----------------16h19p17--------|
|-------------------------------18-15-17-17h18----------18~~---|
|--------------------------------------------------------------|
|--------------------------------------------------------------|

|-------------------------------15-16-19-16-15h16p15----15-----------------|
|-------15h16-15-16-15----15-16----------------------18----18-16-15h16p15--| etc.
|-16-17----------------17--------------------------------------------------|
|--------------------------------------------------------------------------|
|--------------------------------------------------------------------------|
|--------------------------------------------------------------------------|






thanks a lot man!


Post Extras: Print Post  Remind Me! Notify Moderator
OfflineHeadTripVertigo

Registered: 05/09/08
Posts: 18
Loc: Philly
Last seen: 6 years, 14 days
Re: tab help [Re: HeadTripVertigo]
    #363908 - 02/14/10 08:52 AM (6 years, 9 months ago)

after actually looking at it... that's the wrong song man.  i posted the song in the first post.  this is carcass's song embodiment.  different band man.


Post Extras: Print Post  Remind Me! Notify Moderator
Offlinettotheh
european son
Male


Registered: 05/14/09
Posts: 2,135
Loc: new york state Flag
Last seen: 4 years, 6 months
Re: tab help [Re: HeadTripVertigo]
    #364441 - 02/15/10 12:26 AM (6 years, 9 months ago)

haha my bad i went on ultimate guitar for it just check it out on there


--------------------
I live with thirteen dead cats ,
a purple dog that wears spats,
they all live out in the hall,
and i cant stand it anymore



anything i say on this website is 100 % false


Post Extras: Print Post  Remind Me! Notify Moderator
OfflineHeadTripVertigo

Registered: 05/09/08
Posts: 18
Loc: Philly
Last seen: 6 years, 14 days
Re: tab help [Re: ttotheh]
    #374922 - 02/27/10 11:44 PM (6 years, 9 months ago)

yeah there isnt a tab for the song(sculptured - "embodiment") on the internet, as far as i can tell.  so i asked for help here since its tough to get down on my own.


Post Extras: Print Post  Remind Me! Notify Moderator
OfflineHeadTripVertigo

Registered: 05/09/08
Posts: 18
Loc: Philly
Last seen: 6 years, 14 days
Re: tab help [Re: HeadTripVertigo]
    #382777 - 03/12/10 11:06 PM (6 years, 8 months ago)

anyone feel like helping?


Post Extras: Print Post  Remind Me! Notify Moderator
Jump to top. Pages: 1

Community >> The Smoke Lounge >> Tune Town

Similar ThreadsPosterViewsRepliesLast post
* awesome harmony FarBeyondDriven 336 0 10/26/09 01:55 PM
by FarBeyondDriven
* Fellow Player Tips: Guitar.
( 1 2 all )
Thebooedocksaint 3,482 23 12/17/09 05:14 PM
by FarBeyondDriven
* Do You Like Ultra-Fast, Silky-Smooth Rappers from the Mid-West? TrueHerbCrystal 1,101 1 01/15/10 07:26 PM
by Tangerines
* Getting back to the basics. Thebooedocksaint 1,344 14 11/23/09 06:57 AM
by THEBats
* Free Guitar Program
( 1 2 all )
Thebooedocksaint 2,219 21 11/24/09 05:39 PM
by FarBeyondDriven
* What are you listening to right now?
( 1 2 3 4 ... 218 219 )
Picklez 215,745 4,361 12/06/16 07:09 AM
by Chemical Addiction
* Man, I can't stop listening to this song... RasJeph 2,067 17 02/21/10 07:31 PM
by Inverted
* the voice of an angel sent from heaven FarBeyondDriven 839 9 09/26/09 12:53 PM
by elsixstrings

Extra information
You cannot start new topics / You cannot reply to topics
HTML is disabled / BBCode is enabled
Moderator: Stoneth, Dr. Siekadellyk
1,281 topic views. 0 members, 1 guests and 1 web crawlers are browsing this forum.
[ Toggle Favorite | Print Topic | Stats ]
Search this thread:
Royal Queen Seeds Cannabis Seeds
Please support our sponsors.

Copyright 1997-2016 Mind Media. Some rights reserved.

Generated in 0.185 seconds spending 0.007 seconds on 14 queries.